Beton Combo - Nazis raus

Nachricht
Autor
Benutzeravatar
Knox
Beiträge: 63551
Alter: 61
Registriert: 20. April 2003, 22:26
Wohnort: Bierdosenland

Beton Combo - Nazis raus

#1 Beitragvon Knox » 6. Juni 2004, 21:50

Beton Combo - Nazis raus

[Instrumente sind nur Schlagzeug, Bass und ein Keyboard
Die Melodie des Keyboards ist hier für Gitarre getabt]

[Intro:]

E:|----------------------|
H:|----------------------|
G:|--6-----8-----6-----8-|
D:|----------------------|
A:|----------------------|
E:|----------------------|

E:|-----------------------------------------------------|
H:|--------------------------------------------9--------|
G:|-6-9--6-9-6-6-9--6-9-6-8-11--8-11-8-8-11--8---11-9-8-| (2mal spielen)
D:|-----------------------------------------------------|
A:|-----------------------------------------------------|
E:|-----------------------------------------------------|

[Strophenbegleitung:]

E:|-------------------------------------------------|
H:|-------------------------------------------------|
G:|-6-9--6-9-6-6-9--6-9-6-8-11--8-11-8-8-11--8-11-8-|
D:|-------------------------------------------------|
A:|-------------------------------------------------|
E:|-------------------------------------------------|

E:|-----------------------------------------------------|
H:|--------------------------------------------9--------|
G:|-6-9--6-9-6-6-9--6-9-6-8-11--8-11-8-8-11--8---11-9-8-|
D:|-----------------------------------------------------|
A:|-----------------------------------------------------|
E:|-----------------------------------------------------|


[ ---- Strophenbegleitung
wir brauchen keine wehrmacht wir brauchen keine bullen

Strophenbegleitung ---- ]
politik ist scheiße wir lassen uns nicht einlullen

nazis in der wirtschaft nazis in bonn
und schon ist unsere freiheit nur noch fucking stonz


[Intro leicht variert als Bridge!]


braune ratten kriechen aus ihren löchern
um die freiheit einzuäschern
töte die ratte wo du sie siehst
zeig ihr daß du sie nicht liebst!

[Intro als Outro]
Bild
Amnestie für Kiffer in San Francisco
Bezirksstaatsanwalt George Gascón wendet Proposition 64 rückwirkend auf jeden Fall von Marihuana seit 1975 an.

Zurück zu „Lyrics“

Wer ist online?

Mitglieder in diesem Forum: 0 Mitglieder und 2 Gäste