Vorkriegsjugend - The End

Nachricht
Autor
Benutzeravatar
Knox
Beiträge: 63542
Alter: 61
Registriert: 20. April 2003, 22:26
Wohnort: Bierdosenland

Vorkriegsjugend - The End

#1 Beitragvon Knox » 6. Juni 2004, 21:58

Vorkriegsjugend - The End

[Intro]

E:|------------------------------------------------
H:|------------------------------------------------
G:|-7-7-6-6-4-4--4-4------------------4-6-4--------
D:|------------------7-7-5-5----4-5-7-------7-5-4--
A:|---------------------------7--------------------
E:|------------------------------------------------

E:|-------------------------------------------------
H:|---------------------5---------5-7--8-7-5--------
G:|-------4---------4-6---7-7---7------------7-6-4--
D:|---4-5---7-7---7---------------------------------
A:|-7-----------------------------------------------
E:|-------------------------------------------------


H
This is the end my friend

G
you lonesome end my friend

A
This is the end

F#
the end for me and you



This is the end my friend
your only friend the end
This is the end
the end for me and you

C'est le fin mon ami
rien ne va plus mon ami
La mort au'jourdhui
la mort mon ami

E la fine m'amico
niente accado tutto e passato
La ultima fine m'amico
ragazzi il morte state forte
Bild
Allah hat nichts gegen Damenfrisuren
Man muss hier als muslimische Frau kein Kopftuch tragen.

Zurück zu „Lyrics“

Wer ist online?

Mitglieder in diesem Forum: 0 Mitglieder und 1 Gast